Escalas pentatónicas completas


Aquí seguimos, con las pentatónicas. Ahora veremos las escalas pentatónicas completas. Estas escalas poseen más notas que la que estudiamos anteriormente, lo cual permite remarcar un sonido mas "Bluesy" mientras tocamos.

Cuando las practiques verás que suenan muy bien. El secreto de estas escalas es añadir el cuarto grado aumentado, lo que produce un bello efecto melódico. Pasemos ya a ver las 5 posiciones de las escalas pentatónicas completas:

 

1ª Posición - Escuchar
------------------------5-8-5------------------------
--------------------5-8-------8-5--------------------
--------------5-7-8---------------8-7-5--------------
----------5-7---------------------------7-5----------
----5-6-7-----------------------------------7-6-5----
5-8-----------------------------------------------8-5

 

2ª Posición - Escuchar
-----------------------------8-10-11-10-8-----------------------------
------------------------8-10--------------10-8------------------------
------------------7-8-9------------------------9-8-7------------------
-------------7-10------------------------------------10-7-------------
--------7-10----------------------------------------------10-7--------
8-10-11--------------------------------------------------------11-10-8

 

3ª Posición - Escuchar
-----------------------------------10-11-12-11-10-----------------------------------
-----------------------------10-13----------------13-10-----------------------------
------------------------9-12----------------------------12-9------------------------
---------------10-12-13--------------------------------------13-12-10---------------
---------10-12--------------------------------------------------------12-10---------
10-11-12--------------------------------------------------------------------12-11-10

 

4ª Posición - Escuchar
------------------------------------12-15-12------------------------------------
---------------------------13-15-16----------16-15-13---------------------------
---------------------12-14----------------------------14-12---------------------
------------12-13-14----------------------------------------14-13-12------------
------12-15----------------------------------------------------------15-12------
12-15----------------------------------------------------------------------15-12

 

5ª Posición - Escuchar
---------------------------------------15-17-15---------------------------------------
------------------------------15-16-17----------17-16-15------------------------------
------------------------14-17----------------------------17-14------------------------
------------------14-17----------------------------------------17-14------------------
---------15-17-18----------------------------------------------------18-17-15---------
15-16-17----------------------------------------------------------------------17-16-15
 

Principal ] Introducción ] Estructura de la guitarra ] La posición ] La afinación ] La mano derecha ] Técnica de la púa ] La mano izquierda ] Arpegios ] Principios básicos de solfeo y cifrado ] El diapasón ] La tablatura ] La escala de do mayor ] Primera posición ] Punteos ] Lectura de notas y acordes ] Teoría sobre acordes ] Construcción de acordes ] Acordes mayores ] Acordes menores ] Las séptimas ] Acordes mayores con séptima mayor ] Acordes mayores con séptima menor ] Acordes menores con séptima mayor ] Acordes menores con séptima menor ] Inversión de acordes ] Repaso de temas ] Acordes de una tonalidad ] Traslado de acordes ] Escalas ] Escalas pentatónicas ] [ Escalas pentatónicas completas ] Ejercicios con pentatónicas ] Escalas y progresión de blues ] Tips para la práctica ] Mantenimiento ] Simbología ] Preguntas frecuentes ] Descargas ] Contacto ]